ISO-10303-21;
HEADER;
FILE_DESCRIPTION (( 'STEP AP214' ),
    '1' );
FILE_NAME ('180_214C_defeature.STEP',
    '2019-04-02T09:44:16',
    ( '' ),
    ( '' ),
    'SwSTEP 2.0',
    'SolidWorks 2018',
    '' );
FILE_SCHEMA (( 'AUTOMOTIVE_DESIGN' ));
ENDSEC;

DATA;
#1 = DIRECTION ( 'NONE',  ( 0.0000000000000000000, 0.0000000000000000000, -1.000000000000000000 ) ) ;
#2 = ORIENTED_EDGE ( 'NONE', *, *, #212, .T. ) ;
#3 = CARTESIAN_POINT ( 'NONE',  ( 0.0000000000000000000, -4.000000000000002665, 0.0000000000000000000 ) ) ;
#4 = CARTESIAN_POINT ( 'NONE',  ( 0.0000000000000000000, -4.000000000000002665, -19.10000000000000142 ) ) ;
#5 = CARTESIAN_POINT ( 'NONE',  ( 0.0000000000000000000, -4.000000000000002665, -21.19999999999999929 ) ) ;
#6 = ORIENTED_EDGE ( 'NONE', *, *, #70, .F. ) ;
#7 = DIRECTION ( 'NONE',  ( 0.0000000000000000000, 1.000000000000000000, 0.0000000000000000000 ) ) ;
#8 = VECTOR ( 'NONE', #120, 1000.000000000000000 ) ;
#9 = AXIS2_PLACEMENT_3D ( 'NONE', #299, #7, #198 ) ;
#10 = EDGE_CURVE ( 'Defeatured_0_6+Defeatured_0_5+Defeatured_0_5+Defeatured_0_5', #19, #169, #100, .T. ) ;
#11 = DIRECTION ( 'NONE',  ( 0.0000000000000000000, 0.0000000000000000000, -1.000000000000000000 ) ) ;
#12 = ORIENTED_EDGE ( 'NONE', *, *, #91, .F. ) ;
#13 = FILL_AREA_STYLE ('',( #225 ) ) ;
#14 = AXIS2_PLACEMENT_3D ( 'NONE', #154, #105, #1 ) ;
#15 = VERTEX_POINT ( 'NONE', #48 ) ;
#16 = EDGE_CURVE ( 'NONE', #153, #169, #71, .T. ) ;
#17 = ORIENTED_EDGE ( 'NONE', *, *, #112, .F. ) ;
#18 = AXIS2_PLACEMENT_3D ( 'NONE', #215, #270, #141 ) ;
#19 = VERTEX_POINT ( 'NONE', #181 ) ;
#20 = ORIENTED_EDGE ( 'NONE', *, *, #326, .T. ) ;
#21 = DIRECTION ( 'NONE',  ( 0.0000000000000000000, 0.0000000000000000000, -1.000000000000000000 ) ) ;
#22 = CIRCLE ( 'NONE', #332, 18.80000000000000071 ) ;
#23 = CARTESIAN_POINT ( 'NONE',  ( -18.85000000000000142, -24.00000000000000355, 0.0000000000000000000 ) ) ;
#24 = CYLINDRICAL_SURFACE ( 'NONE', #164, 19.10000000000000142 ) ;
#25 = SURFACE_SIDE_STYLE ('',( #224 ) ) ;
#26 = ORIENTED_EDGE ( 'NONE', *, *, #201, .T. ) ;
#27 = EDGE_LOOP ( 'NONE', ( #278, #303, #86, #207 ) ) ;
#28 = EDGE_CURVE ( 'Defeatured_0_3+Defeatured_0_2+Defeatured_0_2+Defeatured_0_2', #158, #312, #101, .T. ) ;
#29 = DIRECTION ( 'NONE',  ( 0.0000000000000000000, 0.0000000000000000000, 1.000000000000000000 ) ) ;
#30 = CARTESIAN_POINT ( 'NONE',  ( 2.596251214192388770E-15, -2.602085213965210642E-15, 21.19999999999999929 ) ) ;
#31 = ORIENTED_EDGE ( 'NONE', *, *, #136, .T. ) ;
#32 = AXIS2_PLACEMENT_3D ( 'NONE', #138, #322, #52 ) ;
#33 = VECTOR ( 'NONE', #85, 1000.000000000000000 ) ;
#34 = EDGE_CURVE ( 'Defeatured_0_6+Defeatured_0_5+Defeatured_0_5+Defeatured_0_5', #169, #19, #251, .T. ) ;
#35 = DIRECTION ( 'NONE',  ( 0.0000000000000000000, 1.000000000000000000, 0.0000000000000000000 ) ) ;
#36 = EDGE_CURVE ( 'Defeatured_0_2+Defeatured_0_1+Defeatured_0_1+Defeatured_0_1', #276, #190, #38, .T. ) ;
#37 = FACE_OUTER_BOUND ( 'NONE', #211, .T. ) ;
#38 = CIRCLE ( 'NONE', #32, 21.19999999999999929 ) ;
#39 = ORIENTED_EDGE ( 'NONE', *, *, #304, .T. ) ;
#40 = DIRECTION ( 'NONE',  ( 0.0000000000000000000, 0.0000000000000000000, -1.000000000000000000 ) ) ;
#41 = DIRECTION ( 'NONE',  ( 0.0000000000000000000, 0.0000000000000000000, -1.000000000000000000 ) ) ;
#42 = ORIENTED_EDGE ( 'NONE', *, *, #253, .T. ) ;
#43 = LINE ( 'NONE', #245, #33 ) ;
#44 = ORIENTED_EDGE ( 'NONE', *, *, #348, .T. ) ;
#45 = DIRECTION ( 'NONE',  ( -0.0000000000000000000, -1.000000000000000000, -0.0000000000000000000 ) ) ;
#46 = ORIENTED_EDGE ( 'NONE', *, *, #112, .T. ) ;
#47 = DIRECTION ( 'NONE',  ( 0.0000000000000000000, 0.9965457582448795648, 0.08304547985374007013 ) ) ;
#48 = CARTESIAN_POINT ( 'NONE',  ( 2.302335982397023862E-15, -7.000000000000002665, 18.80000000000000071 ) ) ;
#49 = DIRECTION ( 'NONE',  ( 0.0000000000000000000, 0.0000000000000000000, -1.000000000000000000 ) ) ;
#50 = ORIENTED_EDGE ( 'NONE', *, *, #304, .F. ) ;
#51 = ADVANCED_FACE ( 'Defeatured_0_5', ( #152 ), #24, .T. ) ;
#52 = DIRECTION ( 'NONE',  ( 0.0000000000000000000, 0.0000000000000000000, -1.000000000000000000 ) ) ;
#53 = AXIS2_PLACEMENT_3D ( 'NONE', #103, #206, #49 ) ;
#54 = CIRCLE ( 'NONE', #59, 19.10000000000000142 ) ;
#55 = VECTOR ( 'NONE', #267, 1000.000000000000000 ) ;
#56 = DIRECTION ( 'NONE',  ( 0.0000000000000000000, 0.0000000000000000000, -1.000000000000000000 ) ) ;
#57 = ORIENTED_EDGE ( 'NONE', *, *, #323, .T. ) ;
#58 = DIRECTION ( 'NONE',  ( 0.0000000000000000000, 1.000000000000000000, 0.0000000000000000000 ) ) ;
#59 = AXIS2_PLACEMENT_3D ( 'NONE', #293, #327, #161 ) ;
#60 = CARTESIAN_POINT ( 'NONE',  ( 0.0000000000000000000, -21.00000000000000355, 0.0000000000000000000 ) ) ;
#61 = ORIENTED_EDGE ( 'NONE', *, *, #34, .F. ) ;
#62 = DIRECTION ( 'NONE',  ( 0.0000000000000000000, 0.0000000000000000000, -1.000000000000000000 ) ) ;
#63 = DIRECTION ( 'NONE',  ( 0.0000000000000000000, 0.0000000000000000000, -1.000000000000000000 ) ) ;
#64 = EDGE_LOOP ( 'NONE', ( #12, #147 ) ) ;
#65 = CONICAL_SURFACE ( 'NONE', #345, 19.10000000000000142, 0.08314123188844133039 ) ;
#66 = DIRECTION ( 'NONE',  ( 0.0000000000000000000, 0.0000000000000000000, -1.000000000000000000 ) ) ;
#67 = AXIS2_PLACEMENT_3D ( 'NONE', #328, #334, #62 ) ;
#68 = DIRECTION ( 'NONE',  ( -0.0000000000000000000, -1.000000000000000000, -0.0000000000000000000 ) ) ;
#69 = APPLICATION_PROTOCOL_DEFINITION ( 'draft international standard', 'automotive_design', 1998, #273 ) ;
#70 = EDGE_CURVE ( 'Defeatured_0_5+Defeatured_0_4+Defeatured_0_4+Defeatured_0_4', #232, #247, #54, .T. ) ;
#71 = LINE ( 'NONE', #313, #145 ) ;
#72 = ADVANCED_BREP_SHAPE_REPRESENTATION ( '180_214C_defeature', ( #79, #142 ), #336 ) ;
#73 = ORIENTED_EDGE ( 'NONE', *, *, #201, .F. ) ;
#74 = CARTESIAN_POINT ( 'NONE',  ( 0.0000000000000000000, -24.00000000000000355, 18.85000000000000142 ) ) ;
#75 = DIRECTION ( 'NONE',  ( -0.0000000000000000000, -1.000000000000000000, -0.0000000000000000000 ) ) ;
#76 = ORIENTED_EDGE ( 'NONE', *, *, #70, .T. ) ;
#77 = LINE ( 'NONE', #4, #8 ) ;
#78 = DIRECTION ( 'NONE',  ( -0.0000000000000000000, -1.000000000000000000, -0.0000000000000000000 ) ) ;
#79 = MANIFOLD_SOLID_BREP ( 'Defeatured_0_6', #280 ) ;
#80 = CARTESIAN_POINT ( 'NONE',  ( 0.0000000000000000000, -21.00000000000000355, 0.0000000000000000000 ) ) ;
#81 = CARTESIAN_POINT ( 'NONE',  ( 0.0000000000000000000, -2.602085213965210642E-15, -21.19999999999999929 ) ) ;
#82 = ORIENTED_EDGE ( 'NONE', *, *, #36, .F. ) ;
#83 = CARTESIAN_POINT ( 'NONE',  ( 2.339075386371445116E-15, -7.000000000000002665, 19.10000000000000142 ) ) ;
#84 = CARTESIAN_POINT ( 'NONE',  ( 0.0000000000000000000, -4.000000000000002665, 0.0000000000000000000 ) ) ;
#85 = DIRECTION ( 'NONE',  ( -0.0000000000000000000, -1.000000000000000000, -0.0000000000000000000 ) ) ;
#86 = ORIENTED_EDGE ( 'NONE', *, *, #10, .T. ) ;
#87 =( GEOMETRIC_REPRESENTATION_CONTEXT ( 3 ) GLOBAL_UNCERTAINTY_ASSIGNED_CONTEXT ( ( #151 ) ) GLOBAL_UNIT_ASSIGNED_CONTEXT ( ( #252, #277, #339 ) ) REPRESENTATION_CONTEXT ( 'NONE', 'WORKASPACE' ) );
#88 = DIRECTION ( 'NONE',  ( -0.0000000000000000000, -1.000000000000000000, -0.0000000000000000000 ) ) ;
#89 = CYLINDRICAL_SURFACE ( 'NONE', #18, 21.19999999999999929 ) ;
#90 = DIRECTION ( 'NONE',  ( 1.000000000000000000, 0.0000000000000000000, 0.0000000000000000000 ) ) ;
#91 = EDGE_CURVE ( 'Defeatured_0_1+Defeatured_0_0+Defeatured_0_0+Defeatured_0_0', #150, #314, #199, .T. ) ;
#92 = EDGE_LOOP ( 'NONE', ( #17, #76, #39, #61 ) ) ;
#93 = DIRECTION ( 'NONE',  ( 0.0000000000000000000, 0.0000000000000000000, -1.000000000000000000 ) ) ;
#94 = CARTESIAN_POINT ( 'NONE',  ( 0.0000000000000000000, -7.000000000000002665, 0.0000000000000000000 ) ) ;
#95 = SURFACE_SIDE_STYLE ('',( #316 ) ) ;
#96 = SURFACE_STYLE_USAGE ( .BOTH. , #95 ) ;
#97 = EDGE_LOOP ( 'NONE', ( #44, #104 ) ) ;
#98 = CYLINDRICAL_SURFACE ( 'NONE', #242, 18.80000000000000071 ) ;
#99 = COLOUR_RGB ( '',0.7921568627450980005, 0.8196078431372548767, 0.9333333333333333481 ) ;
#100 = CIRCLE ( 'NONE', #53, 19.10000000000000142 ) ;
#101 = CIRCLE ( 'NONE', #127, 18.80000000000000071 ) ;
#102 = AXIS2_PLACEMENT_3D ( 'NONE', #80, #75, #56 ) ;
#103 = CARTESIAN_POINT ( 'NONE',  ( 0.0000000000000000000, -21.00000000000000355, 0.0000000000000000000 ) ) ;
#104 = ORIENTED_EDGE ( 'NONE', *, *, #342, .T. ) ;
#105 = DIRECTION ( 'NONE',  ( -0.0000000000000000000, -1.000000000000000000, -0.0000000000000000000 ) ) ;
#106 = ADVANCED_FACE ( 'Defeatured_0_7', ( #311 ), #315, .F. ) ;
#107 = LINE ( 'NONE', #163, #157 ) ;
#108 = SURFACE_STYLE_USAGE ( .BOTH. , #25 ) ;
#109 =( NAMED_UNIT ( * ) PLANE_ANGLE_UNIT ( ) SI_UNIT ( $, .RADIAN. ) );
#110 = LINE ( 'NONE', #325, #319 ) ;
#111 = AXIS2_PLACEMENT_3D ( 'NONE', #249, #116, #63 ) ;
#112 = EDGE_CURVE ( 'NONE', #232, #169, #186, .T. ) ;
#113 = DIRECTION ( 'NONE',  ( 0.0000000000000000000, 0.0000000000000000000, -1.000000000000000000 ) ) ;
#114 = CARTESIAN_POINT ( 'NONE',  ( 0.0000000000000000000, -2.602085213965210642E-15, 0.0000000000000000000 ) ) ;
#115 = AXIS2_PLACEMENT_3D ( 'NONE', #114, #318, #113 ) ;
#116 = DIRECTION ( 'NONE',  ( 0.0000000000000000000, -1.000000000000000000, -0.0000000000000000000 ) ) ;
#117 = DIRECTION ( 'NONE',  ( -0.0000000000000000000, -1.000000000000000000, -0.0000000000000000000 ) ) ;
#118 = ORIENTED_EDGE ( 'NONE', *, *, #28, .T. ) ;
#119 = FACE_BOUND ( 'NONE', #221, .T. ) ;
#120 = DIRECTION ( 'NONE',  ( -0.0000000000000000000, -1.000000000000000000, -0.0000000000000000000 ) ) ;
#121 = AXIS2_PLACEMENT_3D ( 'NONE', #122, #68, #93 ) ;
#122 = CARTESIAN_POINT ( 'NONE',  ( 0.0000000000000000000, -24.00000000000000355, 0.0000000000000000000 ) ) ;
#123 = EDGE_CURVE ( 'Defeatured_0_5+Defeatured_0_4+Defeatured_0_4+Defeatured_0_4', #247, #232, #340, .T. ) ;
#124 = EDGE_LOOP ( 'NONE', ( #234, #298, #227, #343 ) ) ;
#125 = AXIS2_PLACEMENT_3D ( 'NONE', #296, #196, #297 ) ;
#126 = CIRCLE ( 'NONE', #67, 18.80000000000000071 ) ;
#127 = AXIS2_PLACEMENT_3D ( 'NONE', #344, #45, #231 ) ;
#128 = EDGE_CURVE ( 'NONE', #167, #19, #110, .T. ) ;
#129 = ORIENTED_EDGE ( 'NONE', *, *, #28, .F. ) ;
#130 = AXIS2_PLACEMENT_3D ( 'NONE', #135, #283, #133 ) ;
#131 = FACE_OUTER_BOUND ( 'NONE', #92, .T. ) ;
#132 = DIRECTION ( 'NONE',  ( 0.0000000000000000000, 0.0000000000000000000, -1.000000000000000000 ) ) ;
#133 = DIRECTION ( 'NONE',  ( 0.0000000000000000000, 0.0000000000000000000, -1.000000000000000000 ) ) ;
#134 = ADVANCED_FACE ( 'Defeatured_0_4', ( #179, #119 ), #159, .F. ) ;
#135 = CARTESIAN_POINT ( 'NONE',  ( 0.0000000000000000000, -4.000000000000002665, 0.0000000000000000000 ) ) ;
#136 = EDGE_CURVE ( 'Defeatured_0_3+Defeatured_0_2+Defeatured_0_2+Defeatured_0_2', #312, #158, #289, .T. ) ;
#137 = COLOUR_RGB ( '',0.7921568627450980005, 0.8196078431372548767, 0.9333333333333333481 ) ;
#138 = CARTESIAN_POINT ( 'NONE',  ( 0.0000000000000000000, -4.000000000000002665, 0.0000000000000000000 ) ) ;
#139 = CARTESIAN_POINT ( 'NONE',  ( 0.0000000000000000000, -7.000000000000002665, -19.10000000000000142 ) ) ;
#140 = ORIENTED_EDGE ( 'NONE', *, *, #91, .T. ) ;
#141 = DIRECTION ( 'NONE',  ( 0.0000000000000000000, 0.0000000000000000000, -1.000000000000000000 ) ) ;
#142 = AXIS2_PLACEMENT_3D ( 'NONE', #143, #337, #90 ) ;
#143 = CARTESIAN_POINT ( 'NONE',  ( 0.0000000000000000000, 0.0000000000000000000, 0.0000000000000000000 ) ) ;
#144 = EDGE_CURVE ( 'Defeatured_0_2+Defeatured_0_1+Defeatured_0_1+Defeatured_0_1', #190, #276, #239, .T. ) ;
#145 = VECTOR ( 'NONE', #47, 1000.000000000000227 ) ;
#146 = CARTESIAN_POINT ( 'NONE',  ( 0.0000000000000000000, -24.00000000000000355, 0.0000000000000000000 ) ) ;
#147 = ORIENTED_EDGE ( 'NONE', *, *, #326, .F. ) ;
#148 = PRODUCT_DEFINITION_SHAPE ( 'NONE', 'NONE',  #279 ) ;
#149 =( NAMED_UNIT ( * ) PLANE_ANGLE_UNIT ( ) SI_UNIT ( $, .RADIAN. ) );
#150 = VERTEX_POINT ( 'NONE', #81 ) ;
#151 = UNCERTAINTY_MEASURE_WITH_UNIT (LENGTH_MEASURE( 1.000000000000000082E-05 ), #252, 'distance_accuracy_value', 'NONE');
#152 = FACE_OUTER_BOUND ( 'NONE', #175, .T. ) ;
#153 = VERTEX_POINT ( 'NONE', #74 ) ;
#154 = CARTESIAN_POINT ( 'NONE',  ( 0.0000000000000000000, -7.000000000000002665, 0.0000000000000000000 ) ) ;
#155 = ORIENTED_EDGE ( 'NONE', *, *, #144, .F. ) ;
#156 = PRODUCT_DEFINITION_FORMATION_WITH_SPECIFIED_SOURCE ( 'ANY', '', #178, .NOT_KNOWN. ) ;
#157 = VECTOR ( 'NONE', #117, 1000.000000000000000 ) ;
#158 = VERTEX_POINT ( 'NONE', #210 ) ;
#159 = PLANE ( 'NONE',  #300 ) ;
#160 = ORIENTED_EDGE ( 'NONE', *, *, #269, .T. ) ;
#161 = DIRECTION ( 'NONE',  ( 0.0000000000000000000, 0.0000000000000000000, -1.000000000000000000 ) ) ;
#162 = STYLED_ITEM ( 'NONE', ( #301 ), #79 ) ;
#163 = CARTESIAN_POINT ( 'NONE',  ( 2.302335982397023862E-15, -4.000000000000002665, 18.80000000000000071 ) ) ;
#164 = AXIS2_PLACEMENT_3D ( 'NONE', #350, #78, #132 ) ;
#165 = FACE_OUTER_BOUND ( 'NONE', #64, .T. ) ;
#166 = PLANE ( 'NONE',  #9 ) ;
#167 = VERTEX_POINT ( 'NONE', #241 ) ;
#168 = PRODUCT_RELATED_PRODUCT_CATEGORY ( 'part', '', ( #178 ) ) ;
#169 = VERTEX_POINT ( 'NONE', #214 ) ;
#170 = SHAPE_DEFINITION_REPRESENTATION ( #148, #72 ) ;
#171 = DIRECTION ( 'NONE',  ( 0.0000000000000000000, 0.0000000000000000000, -1.000000000000000000 ) ) ;
#172 = UNCERTAINTY_MEASURE_WITH_UNIT (LENGTH_MEASURE( 1.000000000000000082E-05 ), #173, 'distance_accuracy_value', 'NONE');
#173 =( LENGTH_UNIT ( ) NAMED_UNIT ( * ) SI_UNIT ( .MILLI., .METRE. ) );
#174 = DIRECTION ( 'NONE',  ( -0.0000000000000000000, -1.000000000000000000, -0.0000000000000000000 ) ) ;
#175 = EDGE_LOOP ( 'NONE', ( #195, #46, #324, #50 ) ) ;
#176 = FACE_OUTER_BOUND ( 'NONE', #255, .T. ) ;
#177 = PRESENTATION_STYLE_ASSIGNMENT (( #96 ) ) ;
#178 = PRODUCT ( '180_214C_defeature', '180_214C_defeature', '', ( #254 ) ) ;
#179 = FACE_OUTER_BOUND ( 'NONE', #335, .T. ) ;
#180 = FACE_BOUND ( 'NONE', #257, .T. ) ;
#181 = CARTESIAN_POINT ( 'NONE',  ( 0.0000000000000000000, -21.00000000000000355, -19.10000000000000142 ) ) ;
#182 = ORIENTED_EDGE ( 'NONE', *, *, #269, .F. ) ;
#183 = AXIS2_PLACEMENT_3D ( 'NONE', #187, #185, #192 ) ;
#184 = STYLED_ITEM ( 'NONE', ( #177 ), #72 ) ;
#185 = DIRECTION ( 'NONE',  ( -0.0000000000000000000, -1.000000000000000000, -0.0000000000000000000 ) ) ;
#186 = LINE ( 'NONE', #236, #261 ) ;
#187 = CARTESIAN_POINT ( 'NONE',  ( 0.0000000000000000000, -4.000000000000002665, 0.0000000000000000000 ) ) ;
#188 = ADVANCED_FACE ( 'Defeatured_0_6', ( #341 ), #65, .T. ) ;
#189 =( NAMED_UNIT ( * ) SI_UNIT ( $, .STERADIAN. ) SOLID_ANGLE_UNIT ( ) );
#190 = VERTEX_POINT ( 'NONE', #5 ) ;
#191 = AXIS2_PLACEMENT_3D ( 'NONE', #84, #88, #329 ) ;
#192 = DIRECTION ( 'NONE',  ( 0.0000000000000000000, 0.0000000000000000000, -1.000000000000000000 ) ) ;
#193 = FILL_AREA_STYLE_COLOUR ( '', #137 ) ;
#194 = DIRECTION ( 'NONE',  ( -0.0000000000000000000, -1.000000000000000000, -0.0000000000000000000 ) ) ;
#195 = ORIENTED_EDGE ( 'NONE', *, *, #123, .T. ) ;
#196 = DIRECTION ( 'NONE',  ( -0.0000000000000000000, -1.000000000000000000, -0.0000000000000000000 ) ) ;
#197 = FACE_OUTER_BOUND ( 'NONE', #330, .T. ) ;
#198 = DIRECTION ( 'NONE',  ( 0.0000000000000000000, -0.0000000000000000000, 1.000000000000000000 ) ) ;
#199 = CIRCLE ( 'NONE', #115, 21.19999999999999929 ) ;
#200 = APPLICATION_CONTEXT ( 'automotive_design' ) ;
#201 = EDGE_CURVE ( 'NONE', #150, #190, #250, .T. ) ;
#202 = EDGE_LOOP ( 'NONE', ( #284, #216 ) ) ;
#203 = CIRCLE ( 'NONE', #292, 21.19999999999999929 ) ;
#204 = MECHANICAL_DESIGN_GEOMETRIC_PRESENTATION_REPRESENTATION (  '', ( #162 ), #219 ) ;
#205 = AXIS2_PLACEMENT_3D ( 'NONE', #60, #35, #295 ) ;
#206 = DIRECTION ( 'NONE',  ( -0.0000000000000000000, -1.000000000000000000, -0.0000000000000000000 ) ) ;
#207 = ORIENTED_EDGE ( 'NONE', *, *, #16, .F. ) ;
#208 = FILL_AREA_STYLE ('',( #193 ) ) ;
#209 = ADVANCED_FACE ( 'Defeatured_0_3', ( #37 ), #333, .T. ) ;
#210 = CARTESIAN_POINT ( 'NONE',  ( 0.0000000000000000000, -4.000000000000002665, -18.80000000000000071 ) ) ;
#211 = EDGE_LOOP ( 'NONE', ( #182, #31, #307, #294 ) ) ;
#212 = EDGE_CURVE ( 'Defeatured_0_4+Defeatured_0_3+Defeatured_0_3+Defeatured_0_3', #15, #233, #126, .T. ) ;
#213 = EDGE_CURVE ( 'NONE', #158, #233, #320, .T. ) ;
#214 = CARTESIAN_POINT ( 'NONE',  ( 2.339075386371445116E-15, -21.00000000000000355, 19.10000000000000142 ) ) ;
#215 = CARTESIAN_POINT ( 'NONE',  ( 0.0000000000000000000, -4.000000000000002665, 0.0000000000000000000 ) ) ;
#216 = ORIENTED_EDGE ( 'NONE', *, *, #36, .T. ) ;
#217 = CARTESIAN_POINT ( 'NONE',  ( 0.0000000000000000000, -4.000000000000002665, -18.80000000000000071 ) ) ;
#218 = DIRECTION ( 'NONE',  ( -0.0000000000000000000, -1.000000000000000000, -0.0000000000000000000 ) ) ;
#219 =( GEOMETRIC_REPRESENTATION_CONTEXT ( 3 ) GLOBAL_UNCERTAINTY_ASSIGNED_CONTEXT ( ( #272 ) ) GLOBAL_UNIT_ASSIGNED_CONTEXT ( ( #244, #109, #189 ) ) REPRESENTATION_CONTEXT ( 'NONE', 'WORKASPACE' ) );
#220 = CARTESIAN_POINT ( 'NONE',  ( 2.596251214192388770E-15, -4.000000000000002665, 21.19999999999999929 ) ) ;
#221 = EDGE_LOOP ( 'NONE', ( #57, #2 ) ) ;
#222 = CARTESIAN_POINT ( 'NONE',  ( 2.302335982397023862E-15, -4.000000000000002665, 18.80000000000000071 ) ) ;
#223 = FACE_OUTER_BOUND ( 'NONE', #27, .T. ) ;
#224 = SURFACE_STYLE_FILL_AREA ( #208 ) ;
#225 = FILL_AREA_STYLE_COLOUR ( '', #99 ) ;
#226 = ORIENTED_EDGE ( 'NONE', *, *, #213, .F. ) ;
#227 = ORIENTED_EDGE ( 'NONE', *, *, #16, .T. ) ;
#228 = DIRECTION ( 'NONE',  ( -0.0000000000000000000, -1.000000000000000000, -0.0000000000000000000 ) ) ;
#229 = CARTESIAN_POINT ( 'NONE',  ( 0.0000000000000000000, -4.000000000000002665, 0.0000000000000000000 ) ) ;
#230 = CYLINDRICAL_SURFACE ( 'NONE', #321, 21.19999999999999929 ) ;
#231 = DIRECTION ( 'NONE',  ( 0.0000000000000000000, 0.0000000000000000000, -1.000000000000000000 ) ) ;
#232 = VERTEX_POINT ( 'NONE', #83 ) ;
#233 = VERTEX_POINT ( 'NONE', #246 ) ;
#234 = ORIENTED_EDGE ( 'NONE', *, *, #128, .F. ) ;
#235 = CYLINDRICAL_SURFACE ( 'NONE', #125, 19.10000000000000142 ) ;
#236 = CARTESIAN_POINT ( 'NONE',  ( 2.339075386371445116E-15, -4.000000000000002665, 19.10000000000000142 ) ) ;
#237 = ADVANCED_FACE ( 'Defeatured_0_2', ( #180, #240 ), #166, .F. ) ;
#238 = CARTESIAN_POINT ( 'NONE',  ( -18.80000000000000071, -7.000000000000002665, 0.0000000000000000000 ) ) ;
#239 = CIRCLE ( 'NONE', #183, 21.19999999999999929 ) ;
#240 = FACE_OUTER_BOUND ( 'NONE', #202, .T. ) ;
#241 = CARTESIAN_POINT ( 'NONE',  ( 2.323767301382103223E-15, -24.00000000000000355, -18.85000000000000142 ) ) ;
#242 = AXIS2_PLACEMENT_3D ( 'NONE', #3, #194, #66 ) ;
#243 = ORIENTED_EDGE ( 'NONE', *, *, #123, .F. ) ;
#244 =( LENGTH_UNIT ( ) NAMED_UNIT ( * ) SI_UNIT ( .MILLI., .METRE. ) );
#245 = CARTESIAN_POINT ( 'NONE',  ( 2.596251214192388770E-15, -4.000000000000002665, 21.19999999999999929 ) ) ;
#246 = CARTESIAN_POINT ( 'NONE',  ( 0.0000000000000000000, -7.000000000000002665, -18.80000000000000071 ) ) ;
#247 = VERTEX_POINT ( 'NONE', #139 ) ;
#248 = CARTESIAN_POINT ( 'NONE',  ( 0.0000000000000000000, -4.000000000000002665, -21.19999999999999929 ) ) ;
#249 = CARTESIAN_POINT ( 'NONE',  ( 0.0000000000000000000, -1.298125607096194385E-15, 0.0000000000000000000 ) ) ;
#250 = LINE ( 'NONE', #248, #310 ) ;
#251 = CIRCLE ( 'NONE', #102, 19.10000000000000142 ) ;
#252 =( LENGTH_UNIT ( ) NAMED_UNIT ( * ) SI_UNIT ( .MILLI., .METRE. ) );
#253 = EDGE_CURVE ( 'NONE', #314, #276, #43, .T. ) ;
#254 = PRODUCT_CONTEXT ( 'NONE', #200, 'mechanical' ) ;
#255 = EDGE_LOOP ( 'NONE', ( #118, #160, #265, #226 ) ) ;
#256 = PRESENTATION_LAYER_ASSIGNMENT (  '', '', ( #184 ) ) ;
#257 = EDGE_LOOP ( 'NONE', ( #129, #291 ) ) ;
#258 = AXIS2_PLACEMENT_3D ( 'NONE', #146, #305, #171 ) ;
#259 = EDGE_LOOP ( 'NONE', ( #140, #42, #155, #73 ) ) ;
#260 = CIRCLE ( 'NONE', #258, 18.85000000000000142 ) ;
#261 = VECTOR ( 'NONE', #290, 1000.000000000000000 ) ;
#262 = ADVANCED_FACE ( 'Defeatured_0_0', ( #165 ), #271, .F. ) ;
#263 = DIRECTION ( 'NONE',  ( 0.0000000000000000000, -0.0000000000000000000, 1.000000000000000000 ) ) ;
#264 = DIRECTION ( 'NONE',  ( 0.0000000000000000000, 1.000000000000000000, 0.0000000000000000000 ) ) ;
#265 = ORIENTED_EDGE ( 'NONE', *, *, #323, .F. ) ;
#266 = CONICAL_SURFACE ( 'NONE', #205, 19.10000000000000142, 0.08314123188844133039 ) ;
#267 = DIRECTION ( 'NONE',  ( -0.0000000000000000000, -1.000000000000000000, -0.0000000000000000000 ) ) ;
#268 = PRESENTATION_LAYER_ASSIGNMENT (  '', '', ( #162 ) ) ;
#269 = EDGE_CURVE ( 'NONE', #312, #15, #107, .T. ) ;
#270 = DIRECTION ( 'NONE',  ( -0.0000000000000000000, -1.000000000000000000, -0.0000000000000000000 ) ) ;
#271 = PLANE ( 'NONE',  #111 ) ;
#272 = UNCERTAINTY_MEASURE_WITH_UNIT (LENGTH_MEASURE( 1.000000000000000082E-05 ), #244, 'distance_accuracy_value', 'NONE');
#273 = APPLICATION_CONTEXT ( 'automotive_design' ) ;
#274 = CARTESIAN_POINT ( 'NONE',  ( 0.0000000000000000000, -2.602085213965210642E-15, 0.0000000000000000000 ) ) ;
#275 = APPLICATION_PROTOCOL_DEFINITION ( 'draft international standard', 'automotive_design', 1998, #200 ) ;
#276 = VERTEX_POINT ( 'NONE', #220 ) ;
#277 =( NAMED_UNIT ( * ) PLANE_ANGLE_UNIT ( ) SI_UNIT ( $, .RADIAN. ) );
#278 = ORIENTED_EDGE ( 'NONE', *, *, #342, .F. ) ;
#279 = PRODUCT_DEFINITION ( 'UNKNOWN', '', #156, #286 ) ;
#280 = CLOSED_SHELL ( 'NONE', ( #285, #51, #288, #281, #262, #346, #237, #209, #134, #317, #188, #106 ) ) ;
#281 = ADVANCED_FACE ( 'Defeatured_0_1', ( #309 ), #89, .T. ) ;
#282 = MECHANICAL_DESIGN_GEOMETRIC_PRESENTATION_REPRESENTATION (  '', ( #184 ), #87 ) ;
#283 = DIRECTION ( 'NONE',  ( -0.0000000000000000000, -1.000000000000000000, -0.0000000000000000000 ) ) ;
#284 = ORIENTED_EDGE ( 'NONE', *, *, #144, .T. ) ;
#285 = ADVANCED_FACE ( 'Defeatured_0_6', ( #223 ), #266, .T. ) ;
#286 = PRODUCT_DEFINITION_CONTEXT ( 'detailed design', #273, 'design' ) ;
#287 = DIRECTION ( 'NONE',  ( 0.0000000000000000000, -1.000000000000000000, -0.0000000000000000000 ) ) ;
#288 = ADVANCED_FACE ( 'Defeatured_0_3', ( #176 ), #98, .T. ) ;
#289 = CIRCLE ( 'NONE', #130, 18.80000000000000071 ) ;
#290 = DIRECTION ( 'NONE',  ( -0.0000000000000000000, -1.000000000000000000, -0.0000000000000000000 ) ) ;
#291 = ORIENTED_EDGE ( 'NONE', *, *, #136, .F. ) ;
#292 = AXIS2_PLACEMENT_3D ( 'NONE', #274, #306, #41 ) ;
#293 = CARTESIAN_POINT ( 'NONE',  ( 0.0000000000000000000, -7.000000000000002665, 0.0000000000000000000 ) ) ;
#294 = ORIENTED_EDGE ( 'NONE', *, *, #212, .F. ) ;
#295 = DIRECTION ( 'NONE',  ( 0.0000000000000000000, 0.0000000000000000000, 1.000000000000000000 ) ) ;
#296 = CARTESIAN_POINT ( 'NONE',  ( 0.0000000000000000000, -4.000000000000002665, 0.0000000000000000000 ) ) ;
#297 = DIRECTION ( 'NONE',  ( 0.0000000000000000000, 0.0000000000000000000, -1.000000000000000000 ) ) ;
#298 = ORIENTED_EDGE ( 'NONE', *, *, #348, .F. ) ;
#299 = CARTESIAN_POINT ( 'NONE',  ( -21.19999999999999929, -4.000000000000002665, 0.0000000000000000000 ) ) ;
#300 = AXIS2_PLACEMENT_3D ( 'NONE', #238, #287, #21 ) ;
#301 = PRESENTATION_STYLE_ASSIGNMENT (( #108 ) ) ;
#302 =( NAMED_UNIT ( * ) SI_UNIT ( $, .STERADIAN. ) SOLID_ANGLE_UNIT ( ) );
#303 = ORIENTED_EDGE ( 'NONE', *, *, #128, .T. ) ;
#304 = EDGE_CURVE ( 'NONE', #247, #19, #77, .T. ) ;
#305 = DIRECTION ( 'NONE',  ( -0.0000000000000000000, -1.000000000000000000, -0.0000000000000000000 ) ) ;
#306 = DIRECTION ( 'NONE',  ( -0.0000000000000000000, -1.000000000000000000, -0.0000000000000000000 ) ) ;
#307 = ORIENTED_EDGE ( 'NONE', *, *, #213, .T. ) ;
#308 = AXIS2_PLACEMENT_3D ( 'NONE', #23, #264, #263 ) ;
#309 = FACE_OUTER_BOUND ( 'NONE', #259, .T. ) ;
#310 = VECTOR ( 'NONE', #218, 1000.000000000000000 ) ;
#311 = FACE_OUTER_BOUND ( 'NONE', #97, .T. ) ;
#312 = VERTEX_POINT ( 'NONE', #222 ) ;
#313 = CARTESIAN_POINT ( 'NONE',  ( 0.0000000000000000000, -21.00000000000000355, 19.10000000000000142 ) ) ;
#314 = VERTEX_POINT ( 'NONE', #30 ) ;
#315 = PLANE ( 'NONE',  #308 ) ;
#316 = SURFACE_STYLE_FILL_AREA ( #13 ) ;
#317 = ADVANCED_FACE ( 'Defeatured_0_5', ( #131 ), #235, .T. ) ;
#318 = DIRECTION ( 'NONE',  ( -0.0000000000000000000, -1.000000000000000000, -0.0000000000000000000 ) ) ;
#319 = VECTOR ( 'NONE', #347, 1000.000000000000227 ) ;
#320 = LINE ( 'NONE', #217, #55 ) ;
#321 = AXIS2_PLACEMENT_3D ( 'NONE', #229, #228, #40 ) ;
#322 = DIRECTION ( 'NONE',  ( -0.0000000000000000000, -1.000000000000000000, -0.0000000000000000000 ) ) ;
#323 = EDGE_CURVE ( 'Defeatured_0_4+Defeatured_0_3+Defeatured_0_3+Defeatured_0_3', #233, #15, #22, .T. ) ;
#324 = ORIENTED_EDGE ( 'NONE', *, *, #10, .F. ) ;
#325 = CARTESIAN_POINT ( 'NONE',  ( 2.339075386371445116E-15, -21.00000000000000355, -19.10000000000000142 ) ) ;
#326 = EDGE_CURVE ( 'Defeatured_0_1+Defeatured_0_0+Defeatured_0_0+Defeatured_0_0', #314, #150, #203, .T. ) ;
#327 = DIRECTION ( 'NONE',  ( -0.0000000000000000000, -1.000000000000000000, -0.0000000000000000000 ) ) ;
#328 = CARTESIAN_POINT ( 'NONE',  ( 0.0000000000000000000, -7.000000000000002665, 0.0000000000000000000 ) ) ;
#329 = DIRECTION ( 'NONE',  ( 0.0000000000000000000, 0.0000000000000000000, -1.000000000000000000 ) ) ;
#330 = EDGE_LOOP ( 'NONE', ( #338, #20, #26, #82 ) ) ;
#331 = CIRCLE ( 'NONE', #121, 18.85000000000000142 ) ;
#332 = AXIS2_PLACEMENT_3D ( 'NONE', #94, #174, #11 ) ;
#333 = CYLINDRICAL_SURFACE ( 'NONE', #191, 18.80000000000000071 ) ;
#334 = DIRECTION ( 'NONE',  ( -0.0000000000000000000, -1.000000000000000000, -0.0000000000000000000 ) ) ;
#335 = EDGE_LOOP ( 'NONE', ( #243, #6 ) ) ;
#336 =( GEOMETRIC_REPRESENTATION_CONTEXT ( 3 ) GLOBAL_UNCERTAINTY_ASSIGNED_CONTEXT ( ( #172 ) ) GLOBAL_UNIT_ASSIGNED_CONTEXT ( ( #173, #149, #302 ) ) REPRESENTATION_CONTEXT ( 'NONE', 'WORKASPACE' ) );
#337 = DIRECTION ( 'NONE',  ( 0.0000000000000000000, 0.0000000000000000000, 1.000000000000000000 ) ) ;
#338 = ORIENTED_EDGE ( 'NONE', *, *, #253, .F. ) ;
#339 =( NAMED_UNIT ( * ) SI_UNIT ( $, .STERADIAN. ) SOLID_ANGLE_UNIT ( ) );
#340 = CIRCLE ( 'NONE', #14, 19.10000000000000142 ) ;
#341 = FACE_OUTER_BOUND ( 'NONE', #124, .T. ) ;
#342 = EDGE_CURVE ( 'Defeatured_0_7+Defeatured_0_6+Defeatured_0_6+Defeatured_0_6', #167, #153, #260, .T. ) ;
#343 = ORIENTED_EDGE ( 'NONE', *, *, #34, .T. ) ;
#344 = CARTESIAN_POINT ( 'NONE',  ( 0.0000000000000000000, -4.000000000000002665, 0.0000000000000000000 ) ) ;
#345 = AXIS2_PLACEMENT_3D ( 'NONE', #349, #58, #29 ) ;
#346 = ADVANCED_FACE ( 'Defeatured_0_1', ( #197 ), #230, .T. ) ;
#347 = DIRECTION ( 'NONE',  ( 1.017013810865387642E-17, 0.9965457582448795648, -0.08304547985374007013 ) ) ;
#348 = EDGE_CURVE ( 'Defeatured_0_7+Defeatured_0_6+Defeatured_0_6+Defeatured_0_6', #153, #167, #331, .T. ) ;
#349 = CARTESIAN_POINT ( 'NONE',  ( 0.0000000000000000000, -21.00000000000000355, 0.0000000000000000000 ) ) ;
#350 = CARTESIAN_POINT ( 'NONE',  ( 0.0000000000000000000, -4.000000000000002665, 0.0000000000000000000 ) ) ;
ENDSEC;
END-ISO-10303-21;
